Seventh Son Of A Seventh Son

E-------------|---------------|---------------|-------------------------

B-------------|-----}8--------|-----}8--------|-------------------------

G---4:--5--7--|--9--{9--5--7--|--9--{9--5--7--|-------------------------

D---4:--5--7--|--9--}9--5--7--|--9--}9--5--7--|-------------------------

A-------3--5--|--7--v7--3--5--|--7--v7--3--5--|-------------------------

E-------------|---------------|---------------|-------------------------

E------------------------------|---------------|------------------------

B------}5----------------------|-----}1--------|------------------------

G---5--{5----------------------|--2--{2--5--7--|------------------------

D---5--}5--5--5--5--5--2-----|--2--}2--5--7--|------------------------

A---3--v3--3--3--3--3--0-----|--0--v0--3--5--|------------------------

E---------------------------3--|---------------|------------------------

Then it plays this. This is played right through the verse:

E-----------------------------------|-----------------------------|-

B-----------------------------------|-----------------------------|-

G---4:------------------------------|-----------------------------|-

D---4:--9--9-9-9--9-9-9--9-9-9--9-9-|-9--9-9-9--9-9-9--9-9-9--9-9-|-

A-------7--7-7-7--7-7-7--7-7-7--7-7-|-7--7-7-7--7-7-7--7-7-7--7-7-|-

E-------0--0-0-0--0-0-0--0-0-0--0-0-|-0--0-0-0--0-0-0--0-0-0--0-0-|-

Then there is a little interlude. This is the rhythm guitar

part (play twice):

E-----------------------------------|-----------------------------|-

B-----------------------------------|-----------------------------|-

G---4:--5--5-5-5--5-5-5--5-5-5--5-5-|-5--5-5-5--5-5-5--5-5-5--5-5-|-

D---4:--5--5-5-5--5-5-5--5-5-5--5-5-|-5--5-5-5--5-5-5--5-5-5--5-5-|-

A-------3--3-3-3--3-3-3--3-3-3--3-3-|-3--3-3-3--3-3-3--3-3-3--3-3-|-

E-----------------------------------|-----------------------------|-

E--------------------------------|------------------------------|-

B--------------------------------|------------------------------|-

G--------------------------------|------------------------------|-

D---2--2-2-2--2-2-2--2-2-2--2-2--|-2--2-2-2--2-2-2--2-2-2--2-2--|-

A---2--2-2-2--2-2-2--2-2-2--2-2--|-2--2-2-2--2-2-2--2-2-2--2-2--|-

E---0--0-0-0--0-0-0--0-0-0--0-0--|-0--0-0-0--0-0-0--0-0-0--0-0--|-

This is the lead guitar part (play twice):

E-------||---------------------||-------------|-----|-------------

B-------||---8----8-8-8-10-8-7-||--8----7-8-7-|--9--|-------------

G---4:--||*-------------------*||-------------|-----|-------------

D---4:--||*-------------------*||-------------|-----|-------------

A-------||---------------------||-------------|-----|-------------

E-------||---------------------||-------------|-----|-------------

Then repeat from the beginning of the verse until the end of the

above part. Then comes the chorus riff (play twice):

E------------------------------|-----------------------------|-

B------------------------------|-----------------------------|-

G---4:-------------------------|-----------------------------|-

D---4:----------------5--------|-----------------5----7--5-4-|-

A----------7-7-7--5-7---7--7---|------7-7-7--5-7---7---------|-

E-------0--0-0-0--0-0------0---|---0--0-0-0--0-0-------------|-

E------------------------------|-------------------------------|-

B------------------------------|-------------------------------|-

G---4:-------------------------|-------------------------------|-

D---4:----------------5--------|-------------------5--5-4-2-0--|-

A----------7-7-7--5-7---7--7---|------7-7-7--7-7-3-------------|-

E-------0--0-0-0--0-0------0---|---0--0-0-0--0-0---------------|-

Then there is another interlude. This is the rhythm part:

E--------------------------------|------------------------------|-

B--------------------------------|------------------------------|-

G--------------------------------|------------------------------|-

D---2--2-2-2--2-2-2--2-2-2--2-2--|-2--2-2-2--2-2-2--2-2-2--2-2--|-

A---2--2-2-2--2-2-2--2-2-2--2-2--|-2--2-2-2--2-2-2--2-2-2--2-2--|-

E---0--0-0-0--0-0-0--0-0-0--0-0--|-0--0-0-0--0-0-0--0-0-0--0-0--|-

E-----------------------------------|-----------------------------|-

B-----------------------------------|-----------------------------|-

G---4:--5--5-5-5--5-5-5--5-5-5--5-5-|-5--5-5-5--5-5-5--5-5-5--5-5-|-

D---4:--5--5-5-5--5-5-5--5-5-5--5-5-|-5--5-5-5--5-5-5--5-5-5--5-5-|-

A-------3--3-3-3--3-3-3--3-3-3--3-3-|-3--3-3-3--3-3-3--3-3-3--3-3-|-

E-----------------------------------|-----------------------------|-

E-----------------------------------|-----------------------------|-

B-----------------------------------|-----------------------------|-

G---4:--7--7-7-7--7-7-7--7-7-7--7-7-|-7--7-7-7--7-7-7--7-7-7--7-7-|-

D---4:--7--7-7-7--7-7-7--7-7-7--7-7-|-7--7-7-7--7-7-7--7-7-7--7-7-|-

A-------5--5-5-5--5-5-5--5-5-5--5-5-|-5--5-5-5--5-5-5--5-5-5--5-5-|-

E-----------------------------------|-----------------------------|-

E-----------------------------------|-----------------------------|-

B-----------------------------------|-----------------------------|-

G---4:--5--5-5-5--5-5-5--5-5-5--5-5-|-5--5-5-5--5-5-5--5-5-5--5-5-|-

D---4:--5--5-5-5--5-5-5--5-5-5--5-5-|-5--5-5-5--5-5-5--5-5-5--5-5-|-

A-------3--3-3-3--3-3-3--3-3-3--3-3-|-3--3-3-3--3-3-3--3-3-3--3-3-|-

E-----------------------------------|-----------------------------|-

This is the lead part (play twice):

E--------------------------|----------------------|------------------

B--------------------------|----------------------|------------------

G---4:--9----11-12--11--12-|-14--12--11--12-11-9--|------------------

D---4:---------------------|----------------------|------------------

A-------7----9--10--9---10-|-12--10--9---10-9--7--|------------------

E--------------------------|----------------------|------------------

E----------------------|----------------|------------------------------

B----------------------|----------------|------------------------------

G---9----11-12--11--12-|-14--12--11--9--|------------------------------

D----------------------|----------------|------------------------------

A---7----9--10--9---10-|-12--10--9---7--|------------------------------

E----------------------|----------------|------------------------------

Then repeat the verse, first interlude, chorus, and second interlude.

Then play this:

8x

E---||----------------------------------------||-------

B---||----------------------------------------||-------

G---||*--------------------------------------*||-------

D---||*----9-7-9----7------------------------*||-------

A---||---7-------10---9-10-7----7-9-10-9-10-7-||-------

E---||-----------------------10---------------||-------

After playing the above part 4 times, add this harmony:

4x

E---||-----10-8-10-7-8----7----------7---7---||-------

B---||---8-------------10---8-7-8-10--10---8-||-------

G---||*-------------------------------------*||-------

D---||*-------------------------------------*||-------

A---||---------------------------------------||-------

E---||---------------------------------------||-------

There is a rhythm guitar just playing power chords under the above part:

E-------||---------|--------|--------|---------||-----------------------

B-------||---------|--------|--------|---------||-----------------------

G---4:--||*--------|--5--5--|--------|--7--7--*||-----------------------

D---4:--||*--2--2--|--5--5--|--2--2--|--7--7--*||-----------------------

A-------||---2--2--|--3--3--|--2--2--|--5--5---||-----------------------

E-------||---0--0--|--------|--0--0--|---------||-----------------------

Then comes the slow part. I'm not even going to try to make an accurate

tab of that because it is in an incredibly screwed up time signature

(either that or the time signature changes almost every bar). I'll just

give you the basic idea. There is a clean guitar playing this:

E---------------------------------------------------|-------------------

B------7-----7-----7-----7-----7-----7-----7-----7--|-------------------

G---------9-----------9-----------9-----------9-----|-------------------

D---9-----------9-----------9-----------9-----------|-------------------

A---------------------------------------------------|-------------------

E---------------------------------------------------|-------------------

After a while, it switches to this:

E---------------------------------------------------|-------------------

B------3-----3-----3-----3-----3-----3-----3-----3--|-------------------

G---------5-----------5-----------5-----------5-----|-------------------

D---5-----------5-----------5-----------5-----------|-------------------

A---------------------------------------------------|-------------------

E---------------------------------------------------|-------------------

Eventually, you'll hear another guitar playing this:

E---------------------------------------------------|-------------------

B------7--8--7-----7--8--7-----7--8--7-----7--8--7--|-------------------

G---9-----------9-----------9-----------9-----------|-------------------

D---------------------------------------------------|-------------------

A---------------------------------------------------|-------------------

E---------------------------------------------------|-------------------

Then that guitar switches to this:

E---------------------------------------------------|-------------------

B------3--4--3-----3--4--3-----3--4--3-----3--4--3--|-------------------

G---5-----------5-----------5-----------5-----------|-------------------

D---------------------------------------------------|-------------------

A---------------------------------------------------|-------------------

E---------------------------------------------------|-------------------

There are some overdubbed harmonics in there somewhere too. Eventually

another guitar starts playing some E5 and C5 power chords with a

digital delay pedal. Then the delay is turned off and that guitar just

plays some palm-muted E5 and C5 power chords. Then it gets faster. This

is the rhythm part:

E-------------|-----|-------------|-----|-------------|-----|-----------

B-------------|-----|-------------|-----|-------------|-----|-----------

G---4:--5--7--|--9--|--(9)--5--7--|--9--|--(9)--5--7--|--5--|-----------

D---4:--5--7--|--9--|--(9)--5--7--|--9--|--(9)--5--7--|--5--|-----------

A-------3--5--|--7--|--(7)--3--5--|--7--|--(7)--3--5--|--3--|-----------

E-------------|-----|-------------|-----|-------------|-----|-----------

E--------------|-----|-------------|------------------------------------

B--------------|-----|-------------|------------------------------------

G---(5)--5--7--|--9--|--(9)--5--7--|------------------------------------

D---(5)--5--7--|--9--|--(9)--5--7--|------------------------------------

A---(3)--3--5--|--7--|--(7)--3--5--|------------------------------------

E--------------|-----|-------------|------------------------------------

This is the lead part (one guitar plays the upper notes, the other plays

the lower notes):

4x

E-------||-----------------|--------------||----------------------------

B-------||---8--10--12--8--|--10--12--8---||----------------------------

G---4:--||*----------------|-------------*||----------------------------

D---4:--||*----------------|-------------*||----------------------------

A-------||---7--9---10--7--|--9---10--7---||----------------------------

E-------||-----------------|--------------||----------------------------

Then comes the solo. This is the rhythm part:

E---||---------------------------|--------------------------|-----------

B---||---------------------------|--------------------------|-----------

G---||*--------------------------|--------------------------|-----------

D---||*--------------------------|--------------------------|-----------

A---||---4--4--4--4--4--4--4--4--|--4--4--4--4--5--5--2--2--|-----------

E---||---2--2--2--2--2--2--2--2--|--2--2--2--2--3--3--0--0--|-----------

4x

E---------------------------|---------------------------||--------------

B---------------------------|---------------------------||--------------

G---------------------------|--------------------------*||--------------

D---------------------------|--------2--4--5--5--4--2--*||--------------

A---4--4--4--4--4--4--4--4--|--4--4---------------------||--------------

E---2--2--2--2--2--2--2--2--|---------------------------||--------------

Then there is another interlude:

/Guitar 1:

E|---------------||---------------------------------------|-------------

B|---14--12--10--||---8--------------------------------14-|-------------

G|---------------||*--------------------------------------|-------------

D|---------------||*--------------------------------------|-------------

A|---------------||---------------------------------------|-------------

E|---------------||---------------------------------------|-------------

|

|Guitar 2:

E|---------------||---------------------------------------|-------------

B|---------------||---------------------------------------|-------------

G|---6---4-------||*--------------------------------------|-------------

D|-----------2---||*--5--5--5--5--5--5--5--5--5--5--5--5--|-------------

A|---------------||---3--3--3--3--3--3--3--3--3--3--3--3--|-------------

E\---------------||---------------------------------------|-------------

4x

E/-----------------------------------------------||---------------------

B|---14--12--10--8--10--12--14--14--14--12--10---||---------------------

G|----------------------------------------------*||---------------------

D|----------------------------------------------*||---------------------

A|-----------------------------------------------||---------------------

E|-----------------------------------------------||---------------------

|

| 4x

E|-----------------------------------------------||---------------------

B|-----------------------------------------------||---------------------

G|---6---4---2---0--2---4---6---6---6---4---2---*||---------------------

D|----------------------------------------------*||---------------------

A|-----------------------------------------------||---------------------

E\-----------------------------------------------||---------------------

Then play the rhythm part again (twice). Then both guitars play this:

E-------||------------------------|----------------------------|--------

B-------||------------------------|----------------------------|--------

G---4:--||*--6--6--6--------------|----------------4-----------|--------

D---4:--||*-----------7--6--7--4--|--(4)--4--6--7-----7--6--4--|--------

A-------||------------------------|----------------------------|--------

E-------||------------------------|----------------------------|--------

E------------------------|-----------------------------||---------------

B------------------------|-----------------------------||---------------

G---6--6--6--------------|----------------------------*||---------------

D------------7--6--7--4--|--(4)--4--6--7-----------4--*||---------------

A------------------------|----------------4--4--7------||---------------

E------------------------|-----------------------------||---------------

Now the solo rhythm changes to this (play 4 times):

E-------------------------------|--------------------------|------------

B-------------------------------|--------------------------|------------

G---4:--------------------------|--------------------------|------------

D---4:--6--6--6--6--6--6--6--6--|--6--6--6--6--7--7--4--4--|------------

A-------4--4--4--4--4--4--4--4--|--4--4--4--4--5--5--2--2--|------------

E-------------------------------|--------------------------|------------

E---------------------------|--------------------------|----------------

B---------------------------|--------------------------|----------------

G---------------------------|--------------------------|----------------

D---6--6--6--6--6--6--6--6--|--------------------------|----------------

A---4--4--4--4--4--4--4--4--|--------2--4--5--5--4--2--|----------------

E---------------------------|--4--4--------------------|----------------

Now play the above interlude again. Then play the solo rhythm again

(twice). Now play this:

E---------------------------|----------------------------------|--------

B---------------------------|----------------------------------|--------

G---4:--12--11--11--11--11--|--11--11--11--11--11--11--11--11--|--------

D---4:--12--11--11--11--11--|--11--11--11--11--11--11--11--11--|--------

A-------10--9---9---9---9---|--9---9---9---9---9---9---9---9---|--------

E---------------------------|----------------------------------|--------

E--------------|---------------|----------------------|-----------------

B--------------|---------------|----------------------|-----------------

G---12--11--9--|--9--7--9--11--|--12--11--11--11--11--|-----------------

D---12--11--9--|--9--7--9--11--|--12--11--11--11--11--|-----------------

A---10--9---7--|--7--5--7--9---|--10--9---9---9---9---|-----------------

E--------------|---------------|----------------------|-----------------

E-----------------------------------|----------------------|------------

B-----------------------------------|----------------------|------------

G---11--11--11--11--11--11--11--11--|--12--11--11--11--11--|------------

D---11--11--11--11--11--11--11--11--|--12--11--11--11--11--|------------

A---9---9---9---9---9---9---9---9---|--10--9---9---9---9---|------------

E-----------------------------------|----------------------|------------

E-----------------------------------|-------------|------------|--------

B-----------------------------------|-------------|------------|--------

G---11--11--11--11--11--11--11--11--|--12--11--6--|--6--9--11--|--------

D---11--11--11--11--11--11--11--11--|--12--11--6--|--6--9--11--|--------

A---9---9---9---9---9---9---9---9---|--10--9---4--|--4--7--9---|--------

E-----------------------------------|-------------|------------|--------

E-----------------------|----------------------------------|------------

B-----------------------|----------------------------------|------------

G---12--11--11--11--11--|--11--11--11--11--11--11--11--11--|------------

D---12--11--11--11--11--|--11--11--11--11--11--11--11--11--|------------

A---10--9---9---9---9---|--9---9---9---9---9---9---9---9---|------------

E-----------------------|----------------------------------|------------

Now there is yet another harmony interlude (guitar 1 plays the upper

notes, guitar 2 plays the lower notes):

E-------||-------9------|-----------------|------9------|---------------

B-------||---12-----10--|--10--12--9--10--|--12-----10--|---------------

G---4:--||*-------------|-----------------|-------------|---------------

D---4:--||*-------------|-----------------|-------------|---------------

A-------||---7---9--5---|--5---7---4--5---|--7---9--5---|---------------

E-------||--------------|-----------------|-------------|---------------

E------------------|------9------|----------------|-------||------------

B---10--12--9--10--|--12-----10--|--10--12--------|-------||------------

G------------------|-------------|----------9--9--|--11--*||------------

D------------------|-------------|----------------|------*||------------

A---5---7---4--5---|--7---9--5---|--5---7---2--2--|--4----||------------

E------------------|-------------|----------------|-------||------------

Then it changes to this (this is guitar 1's part):

E-------||-------9------------------------|-----------------------------

B-------||---12-----10--12--9--10------9--|-----------------------------

G---4:--||*------------------------11-----|-----------------------------

D---4:--||*-------------------------------|-----------------------------

A-------||--------------------------------|-----------------------------

E-------||--------------------------------|-----------------------------

E-----------------------------------|-------------------|---------------

B-----------------------------------|-------12--12--12--|---------------

G---9--11------9--------------------|-------------------|---------------

D----------12-----11--12--9--11--9--|--(9)--------------|---------------

A-----------------------------------|-------------------|---------------

E-----------------------------------|-------------------|---------------

E-------9------------------------|--------------------------------------

B---12-----10--12--9--10------9--|--------------------------------------

G-------------------------11-----|--------------------------------------

D--------------------------------|--------------------------------------

A--------------------------------|--------------------------------------

E--------------------------------|--------------------------------------

E-----------------------------------|------|---------||-----------------

B----------------------------10-----|------|---------||-----------------

G---9--9h11p9----------9--9------9--|--11--|--(11)--*||-----------------

D--------------12--11---------------|------|--------*||-----------------

A-----------------------------------|------|---------||-----------------

E-----------------------------------|------|---------||-----------------

This is guitar 2's part:

E-------||---4--5-----4--------------|--------------------------|-------

B-------||---------7-----5--7-----5--|--------------------------|-------

G---4:--||*--------------------7-----|--6--7--4--6-----4--------|-------

D---4:--||*--------------------------|--------------7-----6--7--|-------

A-------||---------------------------|--------------------------|-------

E-------||---------------------------|--------------------------|-------

E------|-------4--4--4--|--4--5-----4--------------|--------------------

B------|----------------|--------7-----5--7-----5--|--------------------

G------|----------------|--------------------7-----|--------------------

D---6--|--(6)-----------|--------------------------|--------------------

A------|----------------|--------------------------|--------------------

E------|----------------|--------------------------|--------------------

E-------------------------------|-----|--------||-----------------------

B-------------------------7-----|-----|--------||-----------------------

G---6--6h7p6--4-----6--6-----6--|--6--|--(6)--*||-----------------------

D----------------7--------------|-----|-------*||-----------------------

A-------------------------------|-----|--------||-----------------------

E-------------------------------|-----|--------||-----------------------

Then the rhythm guitar plays this:

E-------------------------------|--------------------|-----|-----|------

B-------------------------------|--------------------|-----|-----|------

G---4:--6--6--6--7--7--7--4--4--|--4--6--6--6--2--4--|--7--|--7--|------

D---4:--6--6--6--7--7--7--4--4--|--4--6--6--6--2--4--|--7--|--7--|------

A-------4--4--4--5--5--5--2--2--|--2--4--4--4--0--2--|--5--|--5--|------

E-------------------------------|--------------------|-----|-----|------

E---------------------------|--------------------|-----|-----|----------

B---------------------------|--------------------|-----|-----|----------

G---6--6--6--7--7--7--4--4--|--4--6--6--6--------|-----|-----|----------

D---6--6--6--7--7--7--4--4--|--4--6--6--6--2--2--|--4--|--4--|----------

A---4--4--4--5--5--5--2--2--|--2--4--4--4--2--2--|--4--|--4--|----------

E---------------------------|--------------0--0--|--2--|--2--|----------

E---------------------------|--------------------|-----|-----|----------

B---------------------------|--------------------|-----|-----|----------

G---6--6--6--7--7--7--4--4--|--4--6--6--6--2--4--|--7--|--7--|----------

D---6--6--6--7--7--7--4--4--|--4--6--6--6--2--4--|--7--|--7--|----------

A---4--4--4--5--5--5--2--2--|--2--4--4--4--0--2--|--5--|--5--|----------

E---------------------------|--------------------|-----|-----|----------

E---------------------------|--------------------|----------------------

B---------------------------|--------------------|----------------------

G---6--6--6--7--7--7--4--4--|--4--6--6--6--------|----------------------

D---6--6--6--7--7--7--4--4--|--4--6--6--6--2--2--|----------------------

A---4--4--4--5--5--5--2--2--|--2--4--4--4--2--2--|----------------------

E---------------------------|--------------0--0--|----------------------

E--------------------------|------------------------|-------------------

B--------------------------|------------------------|-------------------

G---9--9--9--9--9----9--9--|--9--9--9----9--9--9----|-------------------

D---9--9--9--9--9----9--9--|--9--9--9----9--9--9----|-------------------

A---7--7--7--7--7----7--7--|--7--7--7----7--7--7----|-------------------

E--------------------------|------------------------|-------------------

E--------------------------|------------------|-------------------------

B--------------------------|------------------|-------------------------

G---9--9--9--9--9----9--9--|--9--9--9----9----|-------------------------

D---9--9--9--9--9----9--9--|--9--9--9----9----|-------------------------

A---7--7--7--7--7----7--7--|--7--7--7----7----|-------------------------

E--------------------------|------------------|-------------------------

The lead guitar plays this overtop:

E-------9----------------------------|--------------------------|-------

B----------12--10--12--10--9--10--9--|------9---------9---------|-------

G---4:-------------------------------|--11-----11--9-----11--9--|-------

D---4:-------------------------------|--------------------------|-------

A------------------------------------|--------------------------|-------

E------------------------------------|--------------------------|-------

E-------|--------|--12--10--9--10--9------9------|----------------------

B-------|--------|--------------------12-----12--|----------------------

G-------|--------|-------------------------------|----------------------

D---12--|--(12)--|-------------------------------|----------------------

A-------|--------|-------------------------------|----------------------

E-------|--------|-------------------------------|----------------------

E-----------------------------|------|--------|-------------------------

B---10--12--10--9--12--10--9--|------|--------|-------------------------

G-----------------------------|--11--|--(11)--|-------------------------

D-----------------------------|------|--------|-------------------------

A-----------------------------|------|--------|-------------------------

E-----------------------------|------|--------|-------------------------

E---9----------------------------|--------------------------|------|----

B------12--10--12--10--9--10--9--|------9---------9---------|------|----

G--------------------------------|--11-----11--9-----11--9--|------|----

D--------------------------------|--------------------------|--12--|----

A--------------------------------|--------------------------|------|----

E--------------------------------|--------------------------|------|----

E---------|--12--10--9--10--9------9------|-----------------------------

B---------|--------------------12-----12--|-----------------------------

G---------|-------------------------------|-----------------------------

D---(12)--|-------------------------------|-----------------------------

A---------|-------------------------------|-----------------------------

E---------|-------------------------------|-----------------------------

E-----------------------------|--12--12--12--12--12--9---10--|----------

B---10--12--10--9--12--10--9--|--14--14--14--14--14--10--12--|----------

G-----------------------------|------------------------------|----------

D-----------------------------|------------------------------|----------

A-----------------------------|------------------------------|----------

E-----------------------------|------------------------------|----------

E---12--12--12--12--10--9---|--12--12--12--12--12--9---10--|------------

B---14--14--14--14--12--10--|--14--14--14--14--14--10--12--|------------

G---------------------------|------------------------------|------------

D---------------------------|------------------------------|------------

A---------------------------|------------------------------|------------

E---------------------------|------------------------------|------------

E---12--10--9---14--|---------------------------------------------------

B---14--12--10------|---------------------------------------------------

G---------------11--|---------------------------------------------------

D-------------------|---------------------------------------------------

A-------------------|---------------------------------------------------

E-------------------|---------------------------------------------------

Here's the first solo:

E-----------------16------14-------14------|----------------------------

B-------17^--17^------17------17^------17--|----------------------------

G---4:-------------------------------------|----------------------------

D---4:-------------------------------------|----------------------------

A------------------------------------------|----------------------------

E------------------------------------------|----------------------------

E-----------------------------------------|-----------------------------

B---15--14--17--15--14h15p14------14------|-----------------------------

G-----------------------------16------16--|-----------------------------

D-----------------------------------------|-----------------------------

A-----------------------------------------|-----------------------------

E-----------------------------------------|-----------------------------

E-----------------------------------------------|-----------------------

B-----------------------------------------------|-----------------------

G---14--13--16--14--13h14p13------13h14p13------|-----------------------

D-----------------------------16------------16--|-----------------------

A-----------------------------------------------|-----------------------

E-----------------------------------------------|-----------------------

E-------------------------|--------------------------------|------------

B-------------------------|--------------------------------|------------

G---13^--(13)^--(13)------|------14--16--13h14p13------13--|------------

D-------------------------|------------------------16------|------------

A---------------------14--|--16----------------------------|------------

E-------------------------|--------------------------------|------------

E-------12--------------------------|-----------------------------------

B-----------15--14h15p14p12--13p12--|-----------------------------------

G---14------------------------------|-----------------------------------

D-----------------------------------|-----------------------------------

A-----------------------------------|-----------------------------------

E-----------------------------------|-----------------------------------

dive w/bar

E-----------------------------------|-----|-----------------------------

B-----------12----------------------|-----|-----------------------------

G---14--13------14--13--11----------|-----|-----------------------------

D---------------------------14--12--|--11\|-----------------------------

A-----------------------------------|-----|-----------------------------

E-----------------------------------|-----|-----------------------------

E---------------------------|--------------------------|--17^--|--------

B---------------------------|----------------------15--|-------|--------

G---18--19--16--18----------|------18--19--16--18------|-------|--------

D-------------------19--18--|--19----------------------|-------|--------

A---------------------------|--------------------------|-------|--------

E---------------------------|--------------------------|-------|--------

w/bar

E---17^--|-------14\(14)/(16)/(17)\(14)--|--14--16--17--19--19^--|------

B--------|--17^--------------------------|-----------------------|------

G--------|-------------------------------|-----------------------|------

D--------|-------------------------------|-----------------------|------

A--------|-------------------------------|-----------------------|------

E--------|-------------------------------|-----------------------|------

E---19^--(19)--17--16----------|----------------------|-----------------

B----------------------17------|----------------------|-----------------

G--------------------------16--|--14--13--16--14--13--|-----------------

D------------------------------|----------------------|-----------------

A------------------------------|----------------------|-----------------

E------------------------------|----------------------|-----------------

Here's the second solo:

t t t t t t t t

E-------9--13--9--13--9--13--9--13--10--13--10--13--10--13--10--13------

B-----------------------------------------------------------------------

G---4:------------------------------------------------------------------

D---4:------------------------------------------------------------------

A-----------------------------------------------------------------------

E-----------------------------------------------------------------------

t t t t t t t t

E---|--7--13--7--13--7--13--7--13--9--13--9--13--9--13--9--13--|--------

B---|----------------------------------------------------------|--------

G---|----------------------------------------------------------|--------

D---|----------------------------------------------------------|--------

A---|----------------------------------------------------------|--------

E---|----------------------------------------------------------|--------

t t t t t t t t

E---5--13--5--13--7--13--7--13--4--13--4--13--5--13--5--13--|-----------

B-----------------------------------------------------------|-----------

G-----------------------------------------------------------|-----------

D-----------------------------------------------------------|-----------

A-----------------------------------------------------------|-----------

E-----------------------------------------------------------|-----------

E---4h5p4-----------|--------------------------|--------------16--|-----

B----------7--5-----|--------------12--14--15--|--12--14--15------|-----

G----------------6--|--11--13--14--------------|------------------|-----

D-------------------|--------------------------|------------------|-----

A-------------------|--------------------------|------------------|-----

E-------------------|--------------------------|------------------|-----

E---17--16--14--------------|--14--16--17--19^--|-----------------------

B---------------15------15--|-------------------|-----------------------

G-------------------16------|-------------------|-----------------------

D---------------------------|-------------------|-----------------------

A---------------------------|-------------------|-----------------------

E---------------------------|-------------------|-----------------------

This is the third solo:

w/bar w/bar

E-------------|------|-------|--------------|------------------|--------

B-------------|------|--12/--|--12--12--12--|--12------12------|--------

G---4:--------|------|--12/--|--12--12--12--|------13------11--|--------

D---4:--6--9--|--9\--|-------|--------------|------------------|--------

A-------4--7--|--7\--|-------|--------------|------------------|--------

E-------------|------|-------|--------------|------------------|--------

E---------------------------------|------------------------------|------

B------------------11------9------|--9---------------------------|------

G---13--12--11--9------12-----12--|-----9------11--9------9------|------

D---------------------------------|--------11---------11-----11--|------

A---------------------------------|------------------------------|------

E---------------------------------|------------------------------|------

E----------------21^--|-------------------------------------------------

B---------------------|-------------------------------------------------

G------------18-------|-------------------------------------------------

D---------------------|-------------------------------------------------

A---9^--(9)-----------|-------------------------------------------------

E---------------------|-------------------------------------------------

hold bend

E---(21)--(21)--18--15--18--15--12--15--12--15--12--9--12--|------------

B----------------------------------------------------------|------------

G----------------------------------------------------------|------------

D----------------------------------------------------------|------------

A----------------------------------------------------------|------------

E----------------------------------------------------------|------------

E---9--12--9--12--9---------------------------|-------------------------

B--------------------12--9--12--9--12--9------|-------------------------

G-----------------------------------------11--|-------------------------

D---------------------------------------------|-------------------------

A---------------------------------------------|-------------------------

E---------------------------------------------|-------------------------

bend-release-bend-release

E--------------------------------|--------------------------------------

B--------------------------------|--------------------------------------

G---12^--(12)--(12)--(12)--7--9--|--------------------------------------

D--------------------------------|--------------------------------------

A--------------------------------|--------------------------------------

E--------------------------------|--------------------------------------

E-----------------------------------------------------------------------

B-------9---------------------9---------------------9--12--9--12--9-----

G---12-----12--11--9--11--12-----12--11--9--11--12----------------------

D-----------------------------------------------------------------------

A-----------------------------------------------------------------------

E-----------------------------------------------------------------------

w/bar

E---|-----|--------------------------------|------------11^--|----------

B---|-----|--------------------------------|--10--8--9-------|----------

G---|--12\|---------------------11--9--10--|-----------------|----------

D---|-----|---------11------11-------------|-----------------|----------

A---|-----|-----11------10-----------------|-----------------|----------

E---|-----|--9-----------------------------|-----------------|----------

This is the last solo:

E-------13^--(13)--13^--(13)--|--13^--(13)--13^--|----------------------

B-----------------------------|------------------|----------------------

G---4:------------------------|------------------|----------------------

D---4:------------------------|------------------|----------------------

A-----------------------------|------------------|----------------------

E-----------------------------|------------------|----------------------

E------------------------------------|-----------|----------------------

B------------------------------------|-----------|----------------------

G-------9--11^--(11)--11--9----------|--9--9-----|----------------------

D---11-----------------------11--11--|-----------|----------------------

A------------------------------------|-----------|----------------------

E------------------------------------|--------4--|----------------------

E-------------------------------|------------------------|--------------

B-------------------------------|--------4--5--------14--|--------------

G-------------------------1--2--|--4--6--------6~~~------|--------------

D---1h2p1--------1--2--4--------|------------------------|--------------

A----------4--4-----------------|------------------------|--------------

E-------------------------------|------------------------|--------------

E---15--12------16--12------15--12--|------16--12--17^--|---------------

B-----------14----------14----------|--14---------------|---------------

G-----------------------------------|-------------------|---------------

D-----------------------------------|-------------------|---------------

A-----------------------------------|-------------------|---------------

E-----------------------------------|-------------------|---------------

« »

На правах рекламы:

• На only-student.com написать студенческую работу на заказа.